ISO-10303-21;
HEADER;
FILE_DESCRIPTION (( 'STEP AP203' ),
    '1' );
FILE_NAME ('BK7-LNPBSP-25.4-1064.STEP',
    '2020-12-22T04:12:02',
    ( '' ),
    ( '' ),
    'SwSTEP 2.0',
    'SolidWorks 2020',
    '' );
FILE_SCHEMA (( 'CONFIG_CONTROL_DESIGN' ));
ENDSEC;

DATA;
#1 = CALENDAR_DATE ( 2020, 22, 12 ) ;
#2 = FACE_OUTER_BOUND ( 'NONE', #26, .T. ) ;
#3 = ORGANIZATION ( 'UNSPECIFIED', 'UNSPECIFIED', '' ) ;
#4 = APPROVAL ( #90, 'UNSPECIFIED' ) ;
#5 = CARTESIAN_POINT ( 'NONE',  ( 0.000000000000000000, 1.555301434917138433E-15, -12.69999999999999929 ) ) ;
#6 = ADVANCED_BREP_SHAPE_REPRESENTATION ( 'BK7-LNPBSP-25.4-1064', ( #157, #124 ), #158 ) ;
#7 = DIRECTION ( 'NONE',  ( -1.000000000000000000, -0.000000000000000000, -0.000000000000000000 ) ) ;
#8 = DIRECTION ( 'NONE',  ( 1.000000000000000000, 0.000000000000000000, 0.000000000000000000 ) ) ;
#9 = APPROVAL_ROLE ( '' ) ;
#10 = PERSON_AND_ORGANIZATION ( #147, #3 ) ;
#11 =( LENGTH_UNIT ( ) NAMED_UNIT ( * ) SI_UNIT ( .MILLI., .METRE. ) );
#12 = EDGE_LOOP ( 'NONE', ( #111, #132, #160, #114 ) ) ;
#13 = APPROVAL_DATE_TIME ( #162, #92 ) ;
#14 = LINE ( 'NONE', #161, #130 ) ;
#15 = VECTOR ( 'NONE', #7, 1000.000000000000000 ) ;
#16 = CARTESIAN_POINT ( 'NONE',  ( 2.999999999999998224, 0.000000000000000000, 0.000000000000000000 ) ) ;
#17 = CARTESIAN_POINT ( 'NONE',  ( -1.187907395172932594E-15, 0.000000000000000000, 0.000000000000000000 ) ) ;
#18 = CARTESIAN_POINT ( 'NONE',  ( 2.999999999999998224, 0.000000000000000000, 12.69999999999999929 ) ) ;
#19 = PERSON_AND_ORGANIZATION ( #147, #3 ) ;
#20 = DIRECTION ( 'NONE',  ( -1.000000000000000000, -0.000000000000000000, -0.000000000000000000 ) ) ;
#21 = PERSON_AND_ORGANIZATION_ROLE ( 'creator' ) ;
#22 = CARTESIAN_POINT ( 'NONE',  ( -1.187907395172932594E-15, 0.000000000000000000, 0.000000000000000000 ) ) ;
#23 = APPROVAL_ROLE ( '' ) ;
#24 = DATE_AND_TIME ( #105, #148 ) ;
#25 = PERSON_AND_ORGANIZATION ( #147, #3 ) ;
#26 = EDGE_LOOP ( 'NONE', ( #163, #127 ) ) ;
#27 = CC_DESIGN_PERSON_AND_ORGANIZATION_ASSIGNMENT ( #41, #21, ( #60 ) ) ;
#28 = LINE ( 'NONE', #5, #15 ) ;
#29 = APPROVAL_ROLE ( '' ) ;
#30 = ORIENTED_EDGE ( 'NONE', *, *, #96, .T. ) ;
#31 = PRODUCT_DEFINITION_FORMATION_WITH_SPECIFIED_SOURCE ( 'ANY', '', #169, .NOT_KNOWN. ) ;
#32 = DIRECTION ( 'NONE',  ( -1.000000000000000000, 0.000000000000000000, -0.000000000000000000 ) ) ;
#33 = DIRECTION ( 'NONE',  ( 0.000000000000000000, 0.000000000000000000, 1.000000000000000000 ) ) ;
#34 = DATE_AND_TIME ( #71, #115 ) ;
#35 = CARTESIAN_POINT ( 'NONE',  ( 2.999999999999998224, 1.555301434917138433E-15, -12.69999999999999929 ) ) ;
#36 = CALENDAR_DATE ( 2020, 22, 12 ) ;
#37 = PERSON_AND_ORGANIZATION_ROLE ( 'design_owner' ) ;
#38 = ADVANCED_FACE ( 'NONE', ( #126 ), #56, .F. ) ;
#39 = CIRCLE ( 'NONE', #54, 12.69999999999999929 ) ;
#40 = CC_DESIGN_SECURITY_CLASSIFICATION ( #98, ( #31 ) ) ;
#41 = PERSON_AND_ORGANIZATION ( #147, #3 ) ;
#42 = ORIENTED_EDGE ( 'NONE', *, *, #45, .T. ) ;
#43 = DIRECTION ( 'NONE',  ( -1.000000000000000000, -0.000000000000000000, -0.000000000000000000 ) ) ;
#44 = SHAPE_DEFINITION_REPRESENTATION ( #86, #6 ) ;
#45 = EDGE_CURVE ( 'NONE', #94, #67, #14, .T. ) ;
#46 = EDGE_LOOP ( 'NONE', ( #149, #97, #42, #109 ) ) ;
#47 = CARTESIAN_POINT ( 'NONE',  ( 0.000000000000000000, 0.000000000000000000, 0.000000000000000000 ) ) ;
#48 = DIRECTION ( 'NONE',  ( 0.000000000000000000, 0.000000000000000000, 1.000000000000000000 ) ) ;
#49 = PRODUCT_RELATED_PRODUCT_CATEGORY ( 'detail', '', ( #169 ) ) ;
#50 = CIRCLE ( 'NONE', #151, 12.69999999999999929 ) ;
#51 = PERSON_AND_ORGANIZATION ( #147, #3 ) ;
#52 = MECHANICAL_CONTEXT ( 'NONE', #110, 'mechanical' ) ;
#53 = DATE_AND_TIME ( #36, #172 ) ;
#54 = AXIS2_PLACEMENT_3D ( 'NONE', #22, #20, #174 ) ;
#55 = CC_DESIGN_PERSON_AND_ORGANIZATION_ASSIGNMENT ( #51, #101, ( #98 ) ) ;
#56 = PLANE ( 'NONE',  #57 ) ;
#57 = AXIS2_PLACEMENT_3D ( 'NONE', #133, #159, #125 ) ;
#58 = EDGE_CURVE ( 'NONE', #94, #144, #91, .T. ) ;
#59 = PLANE ( 'NONE',  #141 ) ;
#60 = PRODUCT_DEFINITION ( 'UNKNOWN', '', #31, #119 ) ;
#61 = CARTESIAN_POINT ( 'NONE',  ( 0.000000000000000000, 0.000000000000000000, 0.000000000000000000 ) ) ;
#62 = DIRECTION ( 'NONE',  ( 0.000000000000000000, 0.000000000000000000, 1.000000000000000000 ) ) ;
#63 = APPROVAL_STATUS ( 'not_yet_approved' ) ;
#64 = PERSON_AND_ORGANIZATION_ROLE ( 'creator' ) ;
#65 = AXIS2_PLACEMENT_3D ( 'NONE', #16, #78, #95 ) ;
#66 = APPLICATION_PROTOCOL_DEFINITION ( 'international standard', 'config_control_design', 1994, #173 ) ;
#67 = VERTEX_POINT ( 'NONE', #145 ) ;
#68 = DIRECTION ( 'NONE',  ( -1.000000000000000000, -0.000000000000000000, -0.000000000000000000 ) ) ;
#69 = CC_DESIGN_PERSON_AND_ORGANIZATION_ASSIGNMENT ( #25, #37, ( #169 ) ) ;
#70 = CYLINDRICAL_SURFACE ( 'NONE', #121, 12.69999999999999929 ) ;
#71 = CALENDAR_DATE ( 2020, 22, 12 ) ;
#72 = CC_DESIGN_APPROVAL ( #154, ( #31 ) ) ;
#73 = PERSON_AND_ORGANIZATION ( #147, #3 ) ;
#74 = COORDINATED_UNIVERSAL_TIME_OFFSET ( 8, 0, .AHEAD. ) ;
#75 = EDGE_CURVE ( 'NONE', #144, #108, #28, .T. ) ;
#76 = AXIS2_PLACEMENT_3D ( 'NONE', #61, #84, #48 ) ;
#77 =( NAMED_UNIT ( * ) PLANE_ANGLE_UNIT ( ) SI_UNIT ( $, .RADIAN. ) );
#78 = DIRECTION ( 'NONE',  ( -1.000000000000000000, -0.000000000000000000, -0.000000000000000000 ) ) ;
#79 = DIRECTION ( 'NONE',  ( 0.000000000000000000, 0.000000000000000000, 1.000000000000000000 ) ) ;
#80 = CC_DESIGN_PERSON_AND_ORGANIZATION_ASSIGNMENT ( #123, #64, ( #31 ) ) ;
#81 = COORDINATED_UNIVERSAL_TIME_OFFSET ( 8, 0, .AHEAD. ) ;
#82 = APPROVAL_STATUS ( 'not_yet_approved' ) ;
#83 = EDGE_LOOP ( 'NONE', ( #146, #30 ) ) ;
#84 = DIRECTION ( 'NONE',  ( -1.000000000000000000, -0.000000000000000000, -0.000000000000000000 ) ) ;
#85 = CC_DESIGN_DATE_AND_TIME_ASSIGNMENT ( #34, #143, ( #60 ) ) ;
#86 = PRODUCT_DEFINITION_SHAPE ( 'NONE', 'NONE',  #60 ) ;
#87 = COORDINATED_UNIVERSAL_TIME_OFFSET ( 8, 0, .AHEAD. ) ;
#88 = ADVANCED_FACE ( 'NONE', ( #117 ), #137, .T. ) ;
#89 = CC_DESIGN_APPROVAL ( #92, ( #98 ) ) ;
#90 = APPROVAL_STATUS ( 'not_yet_approved' ) ;
#91 = CIRCLE ( 'NONE', #65, 12.69999999999999929 ) ;
#92 = APPROVAL ( #82, 'UNSPECIFIED' ) ;
#93 = APPROVAL_DATE_TIME ( #24, #154 ) ;
#94 = VERTEX_POINT ( 'NONE', #18 ) ;
#95 = DIRECTION ( 'NONE',  ( 0.000000000000000000, 0.000000000000000000, 1.000000000000000000 ) ) ;
#96 = EDGE_CURVE ( 'NONE', #108, #67, #50, .T. ) ;
#97 = ORIENTED_EDGE ( 'NONE', *, *, #104, .T. ) ;
#98 = SECURITY_CLASSIFICATION ( '', '', #167 ) ;
#99 = DIRECTION ( 'NONE',  ( 0.000000000000000000, 0.000000000000000000, 1.000000000000000000 ) ) ;
#100 = DIRECTION ( 'NONE',  ( -1.000000000000000000, -0.000000000000000000, -0.000000000000000000 ) ) ;
#101 = PERSON_AND_ORGANIZATION_ROLE ( 'classification_officer' ) ;
#102 = COORDINATED_UNIVERSAL_TIME_OFFSET ( 8, 0, .AHEAD. ) ;
#103 = APPROVAL_PERSON_ORGANIZATION ( #134, #92, #29 ) ;
#104 = EDGE_CURVE ( 'NONE', #144, #94, #118, .T. ) ;
#105 = CALENDAR_DATE ( 2020, 22, 12 ) ;
#106 = CC_DESIGN_APPROVAL ( #4, ( #60 ) ) ;
#107 = PERSON_AND_ORGANIZATION_ROLE ( 'design_supplier' ) ;
#108 = VERTEX_POINT ( 'NONE', #164 ) ;
#109 = ORIENTED_EDGE ( 'NONE', *, *, #96, .F. ) ;
#110 = APPLICATION_CONTEXT ( 'configuration controlled 3d designs of mechanical parts and assemblies' ) ;
#111 = ORIENTED_EDGE ( 'NONE', *, *, #58, .T. ) ;
#112 = DATE_TIME_ROLE ( 'classification_date' ) ;
#113 = AXIS2_PLACEMENT_3D ( 'NONE', #165, #68, #62 ) ;
#114 = ORIENTED_EDGE ( 'NONE', *, *, #45, .F. ) ;
#115 = LOCAL_TIME ( 12, 12, 2.000000000000000000, #87 ) ;
#116 = DIRECTION ( 'NONE',  ( -0.000000000000000000, 0.000000000000000000, 1.000000000000000000 ) ) ;
#117 = FACE_OUTER_BOUND ( 'NONE', #12, .T. ) ;
#118 = CIRCLE ( 'NONE', #113, 12.69999999999999929 ) ;
#119 = DESIGN_CONTEXT ( 'detailed design', #173, 'design' ) ;
#120 = LOCAL_TIME ( 12, 12, 2.000000000000000000, #81 ) ;
#121 = AXIS2_PLACEMENT_3D ( 'NONE', #47, #128, #33 ) ;
#122 = ADVANCED_FACE ( 'NONE', ( #150 ), #70, .T. ) ;
#123 = PERSON_AND_ORGANIZATION ( #147, #3 ) ;
#124 = AXIS2_PLACEMENT_3D ( 'NONE', #170, #79, #8 ) ;
#125 = DIRECTION ( 'NONE',  ( 0.000000000000000000, 0.000000000000000000, -1.000000000000000000 ) ) ;
#126 = FACE_OUTER_BOUND ( 'NONE', #83, .T. ) ;
#127 = ORIENTED_EDGE ( 'NONE', *, *, #104, .F. ) ;
#128 = DIRECTION ( 'NONE',  ( -1.000000000000000000, -0.000000000000000000, -0.000000000000000000 ) ) ;
#129 = CARTESIAN_POINT ( 'NONE',  ( 2.999999999999999112, 12.69999999999999929, 0.000000000000000000 ) ) ;
#130 = VECTOR ( 'NONE', #43, 1000.000000000000000 ) ;
#131 = LOCAL_TIME ( 12, 12, 2.000000000000000000, #102 ) ;
#132 = ORIENTED_EDGE ( 'NONE', *, *, #75, .T. ) ;
#133 = CARTESIAN_POINT ( 'NONE',  ( -5.939536975864662969E-16, 12.69999999999999929, 0.000000000000000000 ) ) ;
#134 = PERSON_AND_ORGANIZATION ( #147, #3 ) ;
#135 = UNCERTAINTY_MEASURE_WITH_UNIT (LENGTH_MEASURE( 1.000000000000000082E-05 ), #11, 'distance_accuracy_value', 'NONE');
#136 = CC_DESIGN_DATE_AND_TIME_ASSIGNMENT ( #53, #112, ( #98 ) ) ;
#137 = CYLINDRICAL_SURFACE ( 'NONE', #76, 12.69999999999999929 ) ;
#138 = CLOSED_SHELL ( 'NONE', ( #88, #122, #142, #38 ) ) ;
#139 = CALENDAR_DATE ( 2020, 22, 12 ) ;
#140 = APPLICATION_PROTOCOL_DEFINITION ( 'international standard', 'config_control_design', 1994, #110 ) ;
#141 = AXIS2_PLACEMENT_3D ( 'NONE', #129, #32, #116 ) ;
#142 = ADVANCED_FACE ( 'NONE', ( #2 ), #59, .F. ) ;
#143 = DATE_TIME_ROLE ( 'creation_date' ) ;
#144 = VERTEX_POINT ( 'NONE', #35 ) ;
#145 = CARTESIAN_POINT ( 'NONE',  ( -1.187907395172932594E-15, 0.000000000000000000, 12.69999999999999929 ) ) ;
#146 = ORIENTED_EDGE ( 'NONE', *, *, #168, .T. ) ;
#147 = PERSON ( 'UNSPECIFIED', 'UNSPECIFIED', 'UNSPECIFIED', ('UNSPECIFIED'), ('UNSPECIFIED'), ('UNSPECIFIED') ) ;
#148 = LOCAL_TIME ( 12, 12, 2.000000000000000000, #74 ) ;
#149 = ORIENTED_EDGE ( 'NONE', *, *, #75, .F. ) ;
#150 = FACE_OUTER_BOUND ( 'NONE', #46, .T. ) ;
#151 = AXIS2_PLACEMENT_3D ( 'NONE', #17, #100, #99 ) ;
#152 =( NAMED_UNIT ( * ) SI_UNIT ( $, .STERADIAN. ) SOLID_ANGLE_UNIT ( ) );
#153 = COORDINATED_UNIVERSAL_TIME_OFFSET ( 8, 0, .AHEAD. ) ;
#154 = APPROVAL ( #63, 'UNSPECIFIED' ) ;
#155 = APPROVAL_PERSON_ORGANIZATION ( #73, #154, #23 ) ;
#156 = APPROVAL_PERSON_ORGANIZATION ( #19, #4, #9 ) ;
#157 = MANIFOLD_SOLID_BREP ( 'Ðý×', #138 ) ;
#158 =( GEOMETRIC_REPRESENTATION_CONTEXT ( 3 ) GLOBAL_UNCERTAINTY_ASSIGNED_CONTEXT ( ( #135 ) ) GLOBAL_UNIT_ASSIGNED_CONTEXT ( ( #11, #77, #152 ) ) REPRESENTATION_CONTEXT ( 'NONE', 'WORKASPACE' ) );
#159 = DIRECTION ( 'NONE',  ( 1.000000000000000000, 0.000000000000000000, 0.000000000000000000 ) ) ;
#160 = ORIENTED_EDGE ( 'NONE', *, *, #168, .F. ) ;
#161 = CARTESIAN_POINT ( 'NONE',  ( 0.000000000000000000, 0.000000000000000000, 12.69999999999999929 ) ) ;
#162 = DATE_AND_TIME ( #1, #120 ) ;
#163 = ORIENTED_EDGE ( 'NONE', *, *, #58, .F. ) ;
#164 = CARTESIAN_POINT ( 'NONE',  ( -1.187907395172932594E-15, 1.555301434917138433E-15, -12.69999999999999929 ) ) ;
#165 = CARTESIAN_POINT ( 'NONE',  ( 2.999999999999998224, 0.000000000000000000, 0.000000000000000000 ) ) ;
#166 = APPROVAL_DATE_TIME ( #171, #4 ) ;
#167 = SECURITY_CLASSIFICATION_LEVEL ( 'unclassified' ) ;
#168 = EDGE_CURVE ( 'NONE', #67, #108, #39, .T. ) ;
#169 = PRODUCT ( 'BK7-LNPBSP-25.4-1064', 'BK7-LNPBSP-25.4-1064', '', ( #52 ) ) ;
#170 = CARTESIAN_POINT ( 'NONE',  ( 0.000000000000000000, 0.000000000000000000, 0.000000000000000000 ) ) ;
#171 = DATE_AND_TIME ( #139, #131 ) ;
#172 = LOCAL_TIME ( 12, 12, 2.000000000000000000, #153 ) ;
#173 = APPLICATION_CONTEXT ( 'configuration controlled 3d designs of mechanical parts and assemblies' ) ;
#174 = DIRECTION ( 'NONE',  ( 0.000000000000000000, 0.000000000000000000, 1.000000000000000000 ) ) ;
#175 = CC_DESIGN_PERSON_AND_ORGANIZATION_ASSIGNMENT ( #10, #107, ( #31 ) ) ;
ENDSEC;
END-ISO-10303-21;
